gototop

FOLKtime - Vaše brána do světa folku

FOLKtime, folk, country, tramp, jazz, swing, rock, fejeton, reportáže, chat, inzerce, aktuality, rozhovory, recenze, MP3

Hodnocení desek

Filtrovaní hodnocení:

Hledat interpreta: v hodnocení od: do:
Hledat album:
Min. počet hodnotících:
Řadit:
Podle názvu:
  

Rok hodnocení: 2020 | 2019 | 2018 | 2017 | 2016 | 2015 | 2014 | 2013 | 2012 | 2011 | 2010 | 2009 | 2008 | 2007 | 2006 | 2005 | 2004 |

Filtrovat dle interpreta:

Hodnocení desek od interpreta V...
Interpret a název desky BVDJDTHBHHHJTKPKVLPMBMKMPMTMTPRPVŠKTHTMTZVVUPrůměr
Václavek Vladimír
Edel
Hodnotit
7-7--7----76---------O: 6,80
V(3): -
Václavek Vladimír & Dvořáček Miloš
Život je pulsující píseň
Hodnotit
----------2---3------O: 2,50
V(3): -
Václavová Adéla a Kurečka Petr
ve správných kolejích
Hodnotit
6-6--6----566--6-6---O: 5,88
V(3): -
Valenta Milan
Kdy všechno končí i začíná
Hodnotit
----------2----------O: 2,00
V(3): -
Valenta Milan
Jako říční proud
Hodnotit
5-5--4----54--5---5--O: 4,71
V(3): -
Vaněk Michal
V galerii
Hodnotit
10-8--7-8--410--97-77-8O: 7,73
V(3): -
Vasilův Rubáš
Konec světa
Hodnotit
6-5--6----8---46--5-6O: 5,75
V(3): -
Vasilův Rubáš
Nebyl, ale
Hodnotit
7-8--7-6--976--8-5---O: 7,00
V(3): -
Ve čtvrtek v pět
Cesta mraků
Hodnotit
6-4--6----664-6--65--O: 5,44
V: 9,75
Vébrová Jana
Kykyrý
Hodnotit
6---------4---3------O: 4,33
V(3): -
Vedral Jiří
Bueno
Hodnotit
----------3---5------O: 4,00
V(3): -
Vedvou
Páv
Hodnotit
5-5--5--7-3-------5--O: 5,00
V(3): -
Veget
20 let VEGETu
Hodnotit
---------------------O: -
V(3): -
Veit Vladimír
Variace na renesanční téma
Hodnotit
----------4--55------O: 4,67
V(3): -
Veit Vladimír
Písničkář
Hodnotit
--4--6----55-----54--O: 4,83
V(3): -
Vejsada Ondřej V.
Live 2009
Hodnotit
1-1--22-2-32--1---21-O: 1,70
V(3): -
Věneband
Všem králům
Hodnotit
7-5--6-7--67--8--57--O: 6,44
V(2): -
Vepřek Karel
Artinodhás
Hodnotit
-6--75----3--87-7-5--O: 6,00
V(3): -
Vepřek Karel
Želví sny
Hodnotit
----------1--8-------O: 4,50
V(3): -
Vepřek Karel
Najdem den
Hodnotit
7-7--6----27---------O: 5,80
V(3): -
Vertígo Dan
DNVRTG
Hodnotit
7-8--7-----67----7---O: 7,00
V(3): -
Veselá Klára
Hladina
Hodnotit
---------8-8---------O: 8,00
V(3): -
Veslári
Ja pôjdem sám
Hodnotit
----------6--68------O: 6,67
V(3): -
Vespol
Daleko široko...
Hodnotit
---532-------53---3--O: 3,50
V(3): -
Větrníci
Větrníci
Hodnotit
1-2--3--2-32------2--O: 2,14
V(3): -
Viktorín Ivo
Vlna za vlnou
Hodnotit
---657-8--9--66-7-6--O: 6,67
V(3): -
Víťazný traktor
Víťazný traktor
Hodnotit
-------------6-------O: 6,00
V(3): -
Vltavín
Katamarán
Hodnotit
----54----6--5--5-4--O: 4,83
V(3): -
Vodopád
Vodopád 1983-2003
Hodnotit
----35----5--35-3-4--O: 4,00
V(3): -
Volupsije
Kocovina
Hodnotit
2-4--4-3--954--3-54--O: 4,30
V(3): -
Vomiště
Proti běhu času
Hodnotit
6-5--5--6-47------5--O: 5,43
V(3): -
Vomiště
Barevná
Hodnotit
7-7--7-6--67---7-77--O: 6,78
V(3): -
Vondráček Jiří
Labyrint
Hodnotit
----------1----------O: 1,00
V(3): -
Vondrák Jiří
Písně o modrém balónku
Hodnotit
----------2--5-------O: 3,50
V(3): -
Voňková Andrtová Dagmar
Milí moji
Hodnotit
-7---7-2--5--86---7--O: 6,00
V(3): -
Voňková Dagmar
Hostina
Hodnotit
7-8--7-5--489-7--6---O: 6,78
V(2): -
Voňková Dáša & Zdeněk Zdeněk
Slunci ležím v rukou
Hodnotit
7-7--67-8-27--7---6--O: 6,33
V(3): -
Votvíráci
Votvíráci podruhý
Hodnotit
4-7--6----5---4--44--O: 4,86
V: 9,67
Vrbová Jitka
Tam pod nebeskou bání
Hodnotit
-----6----6--44-7-5--O: 5,33
V(3): -
Vrbová Jitka
Pikovický blues
Hodnotit
8-6--8----77------7--O: 7,17
V(3): -
Vrkoč
Otvírám
Hodnotit
7----7----77------77-O: 7,00
V(3): -
Vrkoč
Plán mám jenom na zítřek
Hodnotit
--x--6--9-56--65--6--O: 6,14
V(3): -
Vrobel Petr
Mandolin in Time III
Hodnotit
7----7----57--7---8--O: 6,83
V(3): -
Vrt
13 dobrých vrtů
Hodnotit
-------------44------O: 4,00
V(3): -
Vřešťál Zdeněk
Do posledního dechu
Hodnotit
7----6----87----7-8-7O: 7,14
V(3): -
Vřešťál Zdeněk
Vřešťáloviny aneb To nejlepší z nejhoršího
Hodnotit
6-9--7----95--46--4--O: 6,25
V(3): -
Vyčítal Honza
T jako textař
Hodnotit
----------8--5-------O: 6,50
V(3): -
Vychodilová Lenka
Výprodej Lemury Lepé
Hodnotit
-------------5-------O: 5,00
V(3): -
Vysloužil David & Acoustic Irish
Skorokruh
Hodnotit
-----7----8-6-7------O: 7,00
V(3): -
Vytásek Jan
Ženský kalendář Volume I.
Hodnotit
5-5--5-3--653-5--3---O: 4,44
V(3): -

Kalendář

<< Září 2020 >> 
 Po  Út  St  Čt  Pá  So  Ne 
  1 2 3 4 5 6
 7 8 910111213
14151617181920
2122
30    

Přihlášení

mod_vvisit_countermod_vvisit_countermod_vvisit_countermod_vvisit_countermod_vvisit_countermod_vvisit_countermod_vvisit_countermod_vvisit_countermod_vvisit_counter
FOLKtime.cz
 

Poslechněte si...

  • Country Rádio
  • Rádio Folk
  • Rádio Proglas
  • Rádio Samson
  • Rádio ČRo Olomouc
Nejbližší pořady:

157. koncert "živě..."

Kdo: T.H.S. Brzdaři
Kde: Velké studio Čro Olomouc
Kdy: 07.10. 2020 20:00

158. koncert "živě..."

Kdo: Matěj Ptaszek & Honza Stehlík
Kde: Velké studio Čro Olomouc
Kdy: 11.11. 2020 20:00

159. koncert "živě..."

Kdo: Bluegrass Nova
Kde: Velké studio Čro Olomouc
Kdy: 09.12. 2020 20:00